Without pictures of chords Without chords Put this song in My favorites Print friendly version

Bb
EADgbe
FBbEbabcf
F#BEac#f#
GCFbbdg
AbC#F#bebab
ADGcea
F
EADgbe
FBbEbabcf
F#BEac#f#
GCFbbdg
AbC#F#bebab
ADGcea
Gm
EADgbe
FBbEbabcf
F#BEac#f#
GCFbbdg
AbC#F#bebab
ADGcea
Dm
EADgbe
FBbEbabcf
F#BEac#f#
GCFbbdg
AbC#F#bebab
ADGcea
Eb
EADgbe
GCFbbdg 3.fr
AbC#F#bebab
ADGcea
BbEbAbc#fbb
BEAdf#b
Fsus4
EADgbe
FBbEbabcf
F#BEac#f#
GCFbbdg
AbC#F#bebab
ADGcea
Cm
EADgbe
FBbEbabcf
F#BEac#f#
GCFbbdg
AbC#F#bebab
ADGcea
D
EADgbe
FBbEbabcf
F#BEac#f#
GCFbbdg
AbC#F#bebab
ADGcea
Fm
EADgbe
FBbEbabcf
F#BEac#f#
GCFbbdg
AbC#F#bebab
ADGcea
C
EADgbe
FBbEbabcf
F#BEac#f#
GCFbbdg
AbC#F#bebab
ADGcea
A
EADgbe
FBbEbabcf
F#BEac#f#
GCFbbdg
AbC#F#bebab
ADGcea
D7
EADgbe
FBbEbabcf
F#BEac#f#
GCFbbdg
AbC#F#bebab
ADGcea
G
EADgbe
FBbEbabcf
F#BEac#f#
GCFbbdg
AbC#F#bebab
ADGcea
Em
EADgbe
FBbEbabcf
F#BEac#f#
GCFbbdg
AbC#F#bebab
ADGcea
Bm
EADgbe
FBbEbabcf
F#BEac#f#
GCFbbdg
AbC#F#bebab
ADGcea
F7
EADgbe
FBbEbabcf
F#BEac#f#
GCFbbdg
AbC#F#bebab
ADGcea
E
EADgbe
FBbEbabcf
F#BEac#f#
GCFbbdg
AbC#F#bebab
ADGcea
Am
EADgbe
FBbEbabcf
F#BEac#f#
GCFbbdg
AbC#F#bebab
ADGcea
Gsus4
EADgbe
FBbEbabcf
F#BEac#f#
GCFbbdg
AbC#F#bebab
ADGcea
Edit chords

Hjlpum eim

Bb Gm Dm Eb Bb Fsus4 
Bb Gm Dm 
Gleymdu ekki num minnsta brur
Eb Bb Cm Gm 
 hf og lfur skilji a.
Eb Bb Cm Gm 
Krleikurinn hinn mikli sjur
Fsus4 
 hjarta hverju  sr sta.
Bb Gm Dm 
 von og tr er flginn styrkur,
Eb Bb Cm Gm 
sem llu myrkri getur eytt.
Eb Bb Cm Gm 
 hverjum manni Jess Kristur,
Fsus4 
sem mannkyn getur leitt.
           
Gm 
 skjnum birtast myndir,
Fm 
vi fum af v frttir 
D7 
hungursney gni heilli j,
Em Bm 
menn konur og brn bi dauans,
n hjlpar eigi enga von.
           Bb 
            Bum til betri heim,
           Gm Dm 
            sameinumst hjlpum eim,
           Eb Bb 
            sem minna mega sn,
           Cm Gm 
            au eru systkin mn.
           Eb Bb 
            Vinnum a frii  jr
           Cm Gm 
            lfsrttinn stndum vr
           Fsus4 F7 
            ll sem eitt.
Sl
Bb Gm Dm Eb Bb Cm Gm Eb Bb Cm Gm Fsus4 
Gm 
 skjnum birtast myndir,
Fm 
vi fum af v frttir 
D7 
hungursney gni heilli j,
Em Bm 
menn konur og brn bi dauans,
n bjargar eigi enga von.
(Upphkkun)
           
            Bum til betri heim,
           Am Em 
            sameinumst hjlpum eim,
           
            sem minna mega sn,
           Dm Am 
            au eru systkin mn.
           
            Vinnum a frii  jr
           Dm Am 
            lfsrttinn stndum vr
           Gsus4 
            ll sem eitt.
Sl Intr
   Bb    F     Gm  Dm       Eb    Bb    F  Fsus4  F
E-----------13-------------------------------------------
B--11----13----15--15-15-15-13-11-11----13---------------
G-----10-----------------------------10------------------
D--------------------------------------------------------
A--------------------------------------------------------
E--------------------------------------------------------
Sl
   Bb               F           Gm             Dm
E--------------------------------------------------------
B--------11--11--------13--13------10-11-10----10--------
G--10-10---------10-10----------12----------12-----------
D--------------------------------------------------12----
A--------------------------------------------------------
E--------------------------------------------------------
   Eb             Bb       Cm                Gm
E--------------11-10-------------------------------------
B-------------------11-----------------------------11-13-
G--12-------12---------10--12-------------------12-------
D-----12-13-------------------13-12-10-12-13-12----------
A--------------------------------------------------------
E--------------------------------------------------------
   Eb             Bb          Cm          Gm 
E-----11-10-------10----------------------10-------------
B-----------13-11---------11--------11-------11----------
G--12---------------10-12-----12-------12----------------
D--------------------------------12----------------------
A--------------------------------------------------------
E--------------------------------------------------------
  Gm            F             Fsus4         F7
E--------------------------------------------------------
B-13--13--------13--13--------13--13--------13--13-------
G---------10-10---------10-10---------10-10--------10-10-
D--------------------------------------------------------
A--------------------------------------------------------
E--------------------------------------------------------


Lyrics writer: Jhann G. Jhannsson, Axel Einarsson
Song composer: Jhann G. Jhannsson, Axel Einarsson

    Go back
icon/m-029.gifHaukurN
20.12.2005
20.12.05 Keypti loksins tgfuna og breytti llu!
icon/sim16.gifrmann Alonso
19.12.2005
Jja..allt lagi. Takk krlega.
icon/m-029.gifHaukurN
18.12.2005
Fyrirgefu rmann a voru rjr talnavillur essu tabbi. Stundum arf maur fjarlg til a sj etta!
icon/m-029.gifHaukurN
15.12.2005
rmann: etta sl hj mr er eins og hitt eftir minni (g hef ekki lagi hj mr enn). etta er bara einhvers konar mlamilanlgun eim blsturshljfraslum bum tgfum af laginu. a sem g tabba er ekkert endilega "rtt" en getur gengi me hljmum lagsins og ekkert srstaklega t r k. Ef g finn lagi skal g eya tma a, a virist mjg vinslt essa daga.
icon/sim16.gifrmann Alonso
14.12.2005
Takk...passar samt ekki allveg hj mr..en hva me sli introinu?
icon/sim16.gifrmann Alonso
12.12.2005
Er einhver sjns a f tabs fyrir soloi?

PS: Snilldar lag:D!
icon/m-029.gifHaukurN
20.11.2005
Setti au inn eftir brigulu minni. Hef ekki lagi hj mr.
icon/m-086.gifKpvker
19.11.2005
Vantar gripin !!!
Takk fyrir
You have to be registed user to send a message