Without pictures of chords Without chords Put this song in My favorites Print friendly version

D/G
EADgbe
FBbEbabcf
F#BEac#f#
GCFbbdg
AbC#F#bebab
ADGcea
A
EADgbe
FBbEbabcf
F#BEac#f#
GCFbbdg
AbC#F#bebab
ADGcea
D
EADgbe
FBbEbabcf
F#BEac#f#
GCFbbdg
AbC#F#bebab
ADGcea
A/C#
EADgbe
FBbEbabcf
F#BEac#f#
GCFbbdg
AbC#F#bebab
ADGcea
Bm
EADgbe
FBbEbabcf
F#BEac#f#
GCFbbdg
AbC#F#bebab
ADGcea
D/A
EADgbe
FBbEbabcf
F#BEac#f#
GCFbbdg
AbC#F#bebab
ADGcea
G
EADgbe
FBbEbabcf
F#BEac#f#
GCFbbdg
AbC#F#bebab
ADGcea
G#m7-5
the chord
is not found in the database
Send a E-mail
Or search here
D/F#
EADgbe
FBbEbabcf
F#BEac#f#
GCFbbdg
AbC#F#bebab
ADGcea
Em
EADgbe
FBbEbabcf
F#BEac#f#
GCFbbdg
AbC#F#bebab
ADGcea
A7/C#
the chord
is not found in the database
Send a E-mail
Or search here
F#m
EADgbe
FBbEbabcf
F#BEac#f#
GCFbbdg
AbC#F#bebab
ADGcea
A7
EADgbe
FBbEbabcf
F#BEac#f#
GCFbbdg
AbC#F#bebab
ADGcea
G/A
EADgbe
FBbEbabcf
F#BEac#f#
GCFbbdg
AbC#F#bebab
ADGcea
Edit chords

Always on my mind

D/G 
      
A/C# 
Maybe I didnít love you
Bm D/A 
Quite as often as I could have 
A/C# 
And maybe I didnít treat you
Bm D/A G#m7-5 
Quite as good as I should have
           
            If I made you feel second best
           D/F# Em 
            Girl Iím sorry I was blind
           Bm A7/C# Em F#m 
            You were always on my mind  
           A7 
            You were always on my mind  
And maybe I didnít hold you
All those lonely, lonely times 
And I guess I never told you
Iím so happy that youíre mine
            Little things I should have said and done
            I just never took the time
            You were always on my mind
            You were always on my mind
A/C# Bm D/A 
Tell  me, 
D/F# Em G/A A7 
Tell me that your sweet love hasnít died  
A/C# Bm D/A 
Give  me,  give me
D/F# 
one more chance to keep you satis-
Em 
fied Iíll keep you satis-
What guitar plays on intro:
e-|-----------------------------------|--------------5--7--9-10--|---
B-|--3--5-/7-----2--3-/5-----3--5-/7--|-----5--7--8--------------|---
G-|-----------------------------------|--7-----------------------|---
D-|-----------------------------------|--------------------------|---
A-|-----------------------------------|--------------------------|---
E-|-----------------------------------|--------------------------|---
Part of melody:
e-|--------------------------------------------------|---
B-|--7--8-10--7--7--7--------------7-----------------|---
G-|--------------------9-----7--9-----9--7--6--6-----|---
D-|-----------------------------------------------9--|---
A-|--------------------------------------------------|---
E-|--------------------------------------------------|---


Send me a E-mail if you know who is the lyric-writer
Send me a E-mail if you know who is the song-composer

    Go back
Nothing have been submited about this song.
You have to be registed user to send a message