Put this song in My favorites Print friendly version

Edit chords

sweet child of mine (tab) röfiğ og soloiğ og şağ

0:00
0:15
0:30       w/neck p/u + dist.
|--------------------------------|
|-------15--------15----14-------|
|-----------14-12----14-----14---|
|---12---------------------------|       x10
|--------------------------------|
|--------------------------------|
|-------------------------------|
|-------15--------15----14------|
|-----------14-12----14----14---|
|---14--------------------------|  x2  
|-------------------------------|
|-------------------------------|
|---------------15------14------|
|-------15----------------------|
|---12----14-12-----14-----14---|
|-------------------------------|    x2
|-------------------------------|
|-------------------------------|
|------------------15-----14------|
|-------15------------------------|
|-----------14-12-----14-----14---|
|---12----------------------------|    x2
|---------------------------------|
|---------------------------------|
|---12------------12-----14-------|
|-----------15--------------------|
|-------14-----14-----14-----14---|      
|---------------------------------|      
|---------------------------------|
|---------------------------------|
                                       
|---15-----14-----12------------------|
|----------------------------15~~~~---|
|-------14-----14------14-------------|
|-------------------------------------|
|-------------------------------------|
Verse
0:46
1:47
|------------10-----------3---3------3--------------------2~~~~---|
|---13----------13--------3------3-------3-----------3------------|
|---12---------------12---0------------------0-------2------------|
|---14-----------------------------------------------0------------|
|-----------------------------------------------------------------|
|-----------------------------------------------------------------|
|-----------2-0--2-----------3-2-0-------------------0-----------------|
|------3--------------3---------------3--------3----------3-3----------|
|--------2---------------0-2-------------0-------0-------------0---0---|
|---0----------------------------------------2-------2-------------2---|
|----------------------------------------------------------------------|
|----------------------------------------------------------------------|
|-------------------------------------------------------|
|---------3-------------3--------------0----------------|
|------------0------------------0------------3----------|
|---------------------------------------------------0---|
|---0h2-------------------------------------------------|
|-------------------------------------------------------|
|------------2--------3------------2---|
|---------3---3-----------3------------|
|------2--------2-----------2----------|
|---0-------------0------------0-------|
|--------------------------------------|
|--------------------------------------|
Chorus       w/dist
|------------------------------------|
|-------14----------15------14-------|
|-----------14----------14------14---|
|---11---------14--------------------|
|------------------------------------|
|------------------------------------|
|---------------------13-----12----|
|-------13-------------------------|
|------------12-10-----12-----12---|
|---10-----------------------------|
|----------------------------------|
|----------------------------------|
|----------------15------14--------|
|-------15-------------------------|
|-----------14-12-----14------14---|
|---12-----------------------------|    x2
|----------------------------------|
|----------------------------------|
|----------------------------------|
|------14---------15------14-------|
|----------14---------14------15---|
|---11--------14-------------------|
|----------------------------------|
|----------------------------------|
|--------------------13------12--------------|
|-------13------------------------------15---|
|----------12------------12------12/14-------|
|---10--------10-----------------------------|
|--------------------------------------------|
|--------------------------------------------|
Solo/Melody
|------------------------------------------------------|
|---10p8--7---10-8--7--10p8-----10p8--------10p8-------|
|-------------------------------------9------------9---|
|------------------------------------------------------|
|------------------------------------------------------|
|------------------------------------------------------|
|-----------------------------------------12---10------------------10-------------|
|---10p8--)12)-)10)p8--10-(12(--9-(11(-8----10/8-)8)-)7)--7-(8(~~~~---7-(8(---x---|
|---------------------------------------------------------------------------------|
|---------------------------------------------------------------------------------|
|---------------------------------------------------------------------------------|
|---------------------------------------------------------------------------------|
|------------------------10-10/8/12-12-12/10----------------------|
|---10p8-7--10p8-7/12-----------------------------15/13-12-(13(---|
|-----------------------------------------------------------------|
|-----------------------------------------------------------------|
|-----------------------------------------------------------------|
|-----------------------------------------------------------------|
|------------------------------------------------------------------17-----------|
|---)12)---------------------------------15-15-(17(-(15(-17-(19(~~~~~~~~~~~~~---|
|--------12------)16)-)14)-12-14-(16(-------------------------------------------|
|------------12-----------------------------------------------------------------|
|-------------------------------------------------------------------------------|
|-------------------------------------------------------------------------------|
Verse
Chorus
|-----------------------------------2-(3(-)3)-)2)---------------------------------|
|--------------------------------3--------------------------3--x-x--3-3-3-3-3-3---|
|---2--2--x-x--5--x-5--x-x--2p0-----2--2--x-x--5--x-5--x-x--2--x-x--2-2-2-2-2-2---| 
|---2--2--x-x--5--x-5--x-x--0-4p0---2--2--x-x--5--x-5--x-x--0--x-x--0-0-0-0-0-0---|
|---0--0--x-x--3--x-3--x-x----------0--0--x-x--3--x-3--x-x------------------------|
|------but on second time add in six more 3 and at the end play one stroke of 3---|
                                                                                    
Verse
She's got a smile that it seems to me 
re-minds me of my child-hood
memories where everything was as fresh as the bright blue sky
now and then,
when i think of her face,
it takes me away to that special place and if i stared too long,
i'd probably break down and cry       Whoa-
Chorus
whoa whoa sweet child of mine  whoa
oh oh oh sweet love of mine
Verse 2
She's got eyes of the bluist skies,
as if they thought of rain,
i hate to look into those eyes and see an ounce of pain,
her hair reminds me of a warm safe place,
 where as a child i'd hide,
and pray for thunder,
and the rain to,
pass me by.
Chorus
Whoa oh oh oh sweet child of mine Ooh
Whoa oh oh oh sweet love of mine
Whoa oh oh oh sweet child of mine 
Ooh yeah yeah
Ooh sweet love of mine      ah!


Send me a E-mail if you know who is the lyric-writer
Song composer: Guns N´roses

    Go back
icon/m-088.gifJudas
5.4.2005
Şağ er allt í lagi ağ spila şetta meğ gripunum A-G-D og síğa viğlagiğ E-G-A
You have to be registed user to send a message