Without pictures of chords Without chords Put this song in My favorites Print friendly version

D
EADgbe
FBbEbabcf
F#BEac#f#
GCFbbdg
AbC#F#bebab
ADGcea
C
EADgbe
FBbEbabcf
F#BEac#f#
GCFbbdg
AbC#F#bebab
ADGcea
G
EADgbe
FBbEbabcf
F#BEac#f#
GCFbbdg
AbC#F#bebab
ADGcea
F
EADgbe
FBbEbabcf
F#BEac#f#
GCFbbdg
AbC#F#bebab
ADGcea
Edit chords

Sweet home alabama

Gott er að mynda gripið D þegar maður er að spila byrjunina 
www.grutur.tk
e------------------------------------------------------------
a------3------------3----------------------------------------
b---------2--(2)---------0--(0)--------------------------2p--
d--0-0------------------------------0----------0h2-0---------
a---------------3-3-----------------0------0h2--------2------
e-------------------------------3-3-3------------------------
e------------------------------------------------------------
b------3------------3----------------------------------------
g---------2-(2)--------0-(0)----------0-2-0-0-4-0-0-5p-------
d--0-0----------------------------0--------------------------
a---------------3-3---------------0--------------------------
e-----------------------------3-3-3--------------------------
e------------------------------------------------------------
a------3------------3----------------------------------------
b---------2--(2)---------0--(0)-------------------------2p--
d--0-0------------------------------0----------0h2-0---------
a---------------3-3-----------------0------0h2--------2------
e-------------------------------3-3-3------------------------
e------------------------------------------------------------
a------3------------3----------------------------------------
b---------2--(2)---------0--(0)-------------------0-----------
d--0-0------------------------------0----------0------------
a---------------3-3-----------------0------0h2---------------
e-------------------------------3-3-3------------------------
lyrics come in
e------------------------------------------------
b--------3---------3-----------------------------
g--------2---------0--------------------------2p-
d--0-0---0-(0)-----0--(0)-----0-------0h2-0------
a--------------3-3------------0---0h2--------2----
e-------------------------3-3-3------------------   
repeat til 
e------------------------------------------
b------------------------------------------
g---------7-------------5-5------------0--
d---------7--7----------5-5------------0--   2x (back to lyrics)
a---7-8-9------9-7---5-7------7--0-1-2-----
e------------------------------------------
e------------------------------------------------
b--------3---------3-----------------------------
g--------2---------2--------------------------2p-
d--0-0---0-(0)-----0--(0)-----0-------0h2-0------
a--------------3-3------------0---0h2-------2----
e-------------------------3-3-3------------------    
          “sweet  home Alabama”
e---------------------------------------------
b--------3---------3--------------------------
g--------2---------2--------------------------
d--0-0---0-(0)-----0--(0)-----0-----------5---
a--------------3-3------------0-----5--5--3---
e-------------------------3-3-3-----3--3------ 
                                   ^   ^
                                 on the upbeats
 where ...........so blue
e-----------------------------------------------------
b---------3----- 3--------------------------------------
g---------2------2----------------------------------
d---0-0-------------------0------0------0-----0---
a------------3-3------0h2---0h2---0h2--0h2-----
e---------------------------------------------------
solo:
e--15b-15-12b-10-10-----10-----8/7-----------------------
b--------------------10----10-------10---8--8-10-8-10b---
g--------------------------------------9-----------------
d--------------------------------------------------------
a--------------------------------------------------------
e--------------------------------------------------------
e-------------------------------------------------
b----------8-----10b---------------8----10b---8---
g--7-7--9-----9-------7----7-7--9-----9-----------
d-------------------------------------------------
a-------------------------------------------------
e-------------------------------------------------
e-----------------------------
b-----------------------------
g--9-----7h9p7--------0-----
d----7h9--------10/9----0--------
a----------------------------
e-----------------------------    
Big wheels keep on turnin’
Carry me home to see my kin
Singin’ songs about the southland
I miss ole ’Bamee once again
and think it’s a sin, yes
Well I heard Mr. Young sing about her
well I heard ole Neil put her down
well I hoope Neil Young will remember
a southern man don’t need ’im ’round anyhow
Sweet home Alabama
where the skies are so blue
Sweet home Alabama
Lord I’m comin’ home to you
In Birmingham they loved the gov’ner uh hoo
Now we all did what we could do
Now Watergate does not bother me
does your conscience bother you tell me true?
Sweet home Alabama...
Now muscle Shoals has got the Swampers
been known to pick a song or two
Lord they get me off so much
they pick me up when I’m feelin’ blue
(now how ’bout you?)
Sweet home Alabama...
Uh hoo
Sweet home Alabama...


Lyrics writer: Ronnie Van Zant
Song composer: Ronnie Van Zant

    Go back
icon/m-046.gifElvar
21.3.2007
Nice lag marhhh.... :D:D:D:D:D GG lag ekkert flókið comon :P




hahahahahahahah
icon/sim1.gifgepill
27.1.2005
full flókið fyrir mig :)
icon/m-057.gifKolla
25.1.2005
það er nu doldið flókið að lesa útur sona tapi :þ
icon/m-030.gifgítarman
24.1.2005
eru það solo nótur í sweet home alabama
icon/animal001.gifamj0702
12.9.2004
þetta er nú eitthvað skrítin útgáfa
icon/shakespeare.gifGrutur
2.9.2004
snild
You have to be registed user to send a message