Put this song in My favorites Print friendly version

Edit chords

Star Wars Theme

E----------||-----3--|-----------3-----|-----------3-----|------------ 
B----------||-----3--|--1--0-----3--3--|--1--0-----3--3--|--1--0-- 
G----------||--4--4--|--0-----2--4--4--|--0-----2--4--4--|--2-----
D----------||--5-----|--2-----------5--|--2-----------5--|----3-----
A---5--5--5||--5-----|--3--------------|--3--------------|------------
E----------||--------|-----------------|-----------------|------------ 
E---E---------|-----3--|-----E-----3---|-----E-----3----|-----E---- 
B---1--3------|-----3--|--1--0--E--3--3|--1--0--E--3--3-|--1--0---- 
G------2------|--4--4--|--0-----2--4--4|--0-----2--4--4-|--2------- 
D------4--E--E|--5-----|--2-----------5|--2-----------5-|--3------- 
A---------5--5|--5-----|--3------------|--3-------------|---------- 
E-------------|--------|---------------|----------------|----------
E---E----------|-----------E------|--------E---------------|------- 
B---1--3-------|--------1--0--E--E|-----E--0--E------------|------- 
G------2--E--E-|-----E--0-----2--0|--0--2-----2--E---------|------- 
D------4--0--0-|--2--2--2---------|--2-----------2--4--E--E|--2----
A--------------|--3---------------|-----------------5--5--5|--3---- 
E--------------|--3---------------|-----------------5------|--3---- 
E---------E------|---------------|-----------E------|--------E---- 
B------1--0--E--E|--3--E---------|--------1--0--E--E|-----E--0---- 
G---E--0-----2--0|--3--2--2--E--E|-----E--0-----2--0|--0--2------- 
D---2--2---------|--3-----4--0--0|--2--2--2---------|--2---------- 
A----------------|--------5------|--3---------------|--3---------- 
E----------------|---------------|--3---------------|------------- 
E------------E--E-|--3-----------------------|------------------------- 
B------------3--3-|--4--6--5--3--1-----E--E--|------------------------- 
G---2--E--E-------|--5--5--5--0--0--3--2--0--|--2-----------2---------- 
D---2--2--4-------|--5--5--5--0--1--3--------|--4--E--E--E--4--E--E---- 
A---3-------------|--------3-----------------|--5--5--5--5--5--5--5---- 
E-----------------|--------------------------|------------------------- 
E------|-----3-|-----E-----3----|-----E-----3---|-----E--E---------- 
B------|-----3-|--1--0--E--3--3-|--1--0--E--3--3|--1--0--1--3------- 
G------|--4--4-|--0-----2--4--4-|--0-----2--4--4|--2--------2------- 
D---E--|--5----|--2-----------5-|--2-----------5|--3--------4--E---- 
A---5--|--5----|--3-------------|--3------------|--------------5---- 
E------|-------|----------------|---------------|------------------- 
E------|-----3--|-----E-----3-----|-----E-----3-----|-----E--E---------- 
B------|-----3--|--1--0--E--3--3--|--1--0--E--3--3--|--1--0--1--3--3---- 
G------|--4--4--|--0-----2--4--4--|--0-----2--4--4--|--2--------2------- 
D---E--|--5-----|--2-----------5--|--2-----------5--|--3--------4--0---- 
A---5--|--5-----|--3--------------|--3--------------|------------------- 
E------|--------|-----------------|-----------------|------------------- 
E---|--3-----------|------------------|--3--||------------------------
B---|--3-----------|------------------|--3--||------------------------
G---|--4--E--E--E--|-----------2--2--2|--4--||------------------------ 
D---|--5--4--2--0--|--E--E--E--4--4--4|--5--||------------------------ 
A---|--------------|--3--2--0--5--5--5|--5--||------------------------ 
E---|--------------|------------------|--3--||------------------------ 


Send me a E-mail if you know who is the lyric-writer
Send me a E-mail if you know who is the song-composer

    Go back
Nothing have been submited about this song.
You have to be registed user to send a message