Without pictures of chords Without chords Put this song in My favorites Print friendly version

Edit chords

The good the bad and the ugly (TAB)

Eftir Ennio Morricone
r kvikmynd eftir Sergio Leone
Clint Eastwood - Lee Van Cleef - Eli Wallach
   Dm                 G      Dm               C
E-----10----10------------------10----10\---------------------
B--10----10----10\-----------10----10------------13-----------
G------------------10-12-------------------10-12--------------
D------------------------12-----------------------------------
A-------------------------------------------------------------
E-------------------------------------------------------------
   Dm                C       Dm          G     Dm
E-----10----10------------------10----10----------------------
B--10----10----10------------10----10-------------------------
G-----------------10-9-------------------12-------------------
D----------------------12-------------------12-12-------------
A-------------------------10----------------------------------
E-------------------------------------------------------------
   Dm          G     Dm         C
E-------------------------------------------------------------
B-------------------------------------------------------------
G----7---7-------------7---7\---------------------------------
D--7---7---7---------7---7---------10-------------------------
A------------8-10-------------8-10----------------------------
E-----------------10------------------------------------------
  Dm          C      Dm       G   Dm 
E-------------------------------------------------------------
B-------------------------------------------------------------
G---7---7--------------7---7\---------------------------------
D-7---7---7----------7---7------------------------------------
A-----------8-7---------------10------------------------------
E---------------10-8-------------10-10------------------------
    Dm       C     Dm      C    Dm      F     C    G       A
E---------------------------------------------12---15--12--17-
B------10----13------10----13-----10----13-10---13------------
G---------10------------10-----------10-----------------------
D---12-------------12-----------12----------------------------
A-12-------------12-----------12------------------------------
E-------------------------------------------------------------
   Dm       G     Dm       G     Dm       G     Dm       G
E--13-12----15----13-12----15----13-12----15----13-12----15---
B--------15----15------15----15-------15----15-------15----15-
G-------------------------------------------------------------
D-------------------------------------------------------------
A-------------------------------------------------------------
E-------------------------------------------------------------
  Dm          C     G           Am    Em       Dm
E-13-12-------12----------------------------------------------
B-------15-13----13-15-13-12----13----------------------------
G----------------------------14----14-15-14-12-15-14----------
D----------------------------------------------------15-------
A-------------------------------------------------------------
E-------------------------------------------------------------
  Am       Dm       C  C# 
E-------------------------------------------------------------
B-------------------------------------------------------------
G-12----------------------------------------------------------
D----15-14-12-15-12----11-------------------------------------
A-------------------15----------------------------------------
E-------------------------------------------------------------
   Dm                 G      Dm               C
E-----10----10------------------10----10\---------------------
B--10----10----10\-----------10----10------------13-----------
G------------------10-12-------------------10-12--------------
D------------------------12-----------------------------------
A-------------------------------------------------------------
E-------------------------------------------------------------
   Dm                C       Dm          G     Dm
E-----10----10------------------10----10----------------------
B--10----10----10------------10----10-------------------------
G-----------------10-9-------------------12-------------------
D----------------------12-------------------12-12-------------
A-------------------------10----------------------------------
E-------------------------------------------------------------
  Dm                G               Bb
E-------------------------------------------------------------
B-----6-6-----6-6-----8-8-----8-8-----6-6-----6-6-------------
G-7-7-----7-7-----7-7-----7-7-----7-7-----7-7-----------------
D-------------------------------------------------------------
A-------------------------------------------------------------
E-------------------------------------------------------------
  F                 C                Am                 Dm
E---------------------8-8-----8-8-------10-8----10-8----10----
B-----6-6-----6-6-8-8-----8-8-----10-10----- 10------10-------
G-5-5-----5-5-------------------------------------------------
D-------------------------------------------------------------
A-------------------------------------------------------------
E-------------------------------------------------------------
    Dm       C     Dm      C    Dm      F     C    G       A
E---------------------------------------------12---15--12--17-
B------10----13------10----13-----10----13-10---13------------
G---------10------------10-----------10-----------------------
D---12-------------12-----------12----------------------------
A-12-------------12-----------12------------------------------
E-------------------------------------------------------------
   Dm       G     Dm       G     Dm       G     Dm       G
E--13-12----15----13-12----15----13-12----15----13-12----15---
B--------15----15------15----15-------15----15-------15----15-
G-------------------------------------------------------------
D-------------------------------------------------------------
A-------------------------------------------------------------
E-------------------------------------------------------------
  Dm          C     G           Am    Em       Dm
E-13-12-------12----------------------------------------------
B-------15-13----13-15-13-12----13----------------------------
G----------------------------14----14-15-14-12-15-14----------
D----------------------------------------------------15-------
A-------------------------------------------------------------
E-------------------------------------------------------------
  Am       G         C  C# 
E-------------------------------------------------------------
B-------------------------------------------------------------
G-12----------------------------------------------------------
D----15-14-12-15-12----11-------------------------------------
A-------------------15----------------------------------------
E-------------------------------------------------------------
   Dm                 G      Dm               C
E-----10----10------------------10----10\---------------------
B--10----10----10\-----------10----10------------13-----------
G------------------10-12-------------------10-12--------------
D------------------------12-----------------------------------
A-------------------------------------------------------------
E-------------------------------------------------------------
   Dm                
E-----10----10------------------------------------------------
B--10----10----10---------------------------------------------
G-----------------10\7----------------------------------------
D-------------------------------------------------------------
A-------------------------------------------------------------
E-------------------------------------------------------------


Lyrics writer: Ennio Morricone
Song composer: Ennio Morricone

    Go back
icon/m-029.gifHaukurN
17.12.2005
Velji Courier (monospace) letur til a etta birtist rtt.
You have to be registed user to send a message