Put this song in My favorites Print friendly version

G
EADgbe
FBbEbabcf
F#BEac#f#
GCFbbdg
AbC#F#bebab
ADGcea
C
EADgbe
FBbEbabcf
F#BEac#f#
GCFbbdg
AbC#F#bebab
ADGcea
D
EADgbe
FBbEbabcf
F#BEac#f#
GCFbbdg
AbC#F#bebab
ADGcea
A
EADgbe
FBbEbabcf
F#BEac#f#
GCFbbdg
AbC#F#bebab
ADGcea
Edit chords

Napoleon dynamite - byrjunarlagiğ

 G               G               G               G
e|---------------|---------------|---------------|---------------|
B|--0-------0----|--0-------0----|--0-------0----|--0-------0----|
G|------0-------0|------0-------0|------0-------0|------0-------0| 
D|---------------|---------------|---------------|---------------|
A|---------------|---------------|---------------|---------------|
E|3---3---3---3--|3---3---3---3--|3---3---3---3--|3---3---3---3--|
 C               G
e|---------------|---------------|
B|--1-------1----|--0-------0----|
G|------0-------0|------0-------0|
D|---------------|---------------|
A|3---3---3---3--|---------------|
E|---------------|3---3---3---3--|
 D       C       G               D       C       G
e|---------------|---------------|---------------|---------------|
B|--3-------1----|--0-------0----|--3-------1----|--0-------0----|
G|------2-------0|------0-------0|------2-------0|------0-------0|
D|0---0----------|---------------|0---0----------|---------------|
A|--------3---3--|---------------|--------3---3--|---------------|
E|---------------|3---3---3---3--|---------------|3---3---3---3--|
 A               A               D               C
e|---------------|---------------|---------------|---------------|
B|--2---2---2---2|--2---2---2---2|--3---3---3---3|--1-------1----|
G|----2-------2--|----2-------2--|----2-------2--|------0-------0|
D|---------------|---------------|0-------0------|---------------|
A|0-------0------|0-------0------|---------------|3---3---3---3--|
E|---------------|---------------|---------------|---------------|
                   
Fall is here, hear the yell
                     
back to school, ring the bell
                      
brand new shoes, walking blues
                         
climb the fence, books and pens
                      
I can tell that we’re going to be friends
Walk with me, Suzy Lee
through the park and by the tree
we will rest upon the ground
and look at all the bugs we found
then safely walk to school
without a sound
Well here we are, no one else
we walked to school all by ourselves
there’s dirt on our uniforms
from chasing all the ants and worms
we clean up and now its time to learn
Numbers, letters, learn to spell
nouns, and books, and show and tell
at playtime we will throw the ball
back to class, through the hall
teacher marks our height
against the wall
                         
And we don’t notice any time pass
                     
we don’t notice anything
         
we sit side by side in every class
   
teacher thinks that I sound funny
                      
but she likes the way you sing
SÍĞAN AFTUR FYRSTA VERSE!!!!
Tonight I’ll dream while in my bed
when silly thoughts go through my head
about the bugs and alphabet
and when I wake tomorrow I’ll bet
that you and I will walk together again
cause I can tell that we’re going to be friends


Lyrics writer: jack white
Song composer: White stripes

    Go back
Nothing have been submited about this song.
You have to be registed user to send a message