Put this song in My favorites Print friendly version

Edit chords

Sweet child o mine

e|---------------15---14-----|
b|-----15---------------------|
g|--------14-12---14---14---|
d|-12-------------------------|
a|-----------------------------|
e|-----------------------------| 2x
e|---------------15---14-----|
b|-----15---------------------|
g|--------14-12---14---14---|
d|-14-------------------------|
a|-----------------------------|
e|-----------------------------| 2x
e|---------------15---14-----|
b|-----15---------------------|
g|-12----14-12---14---14---|
d|-----------------------------|
a|-----------------------------|
e|-----------------------------| 2x
e|---------------15---14-----|
b|-----15---------------------|
g|--------14-12---14---14---|
d|-12-------------------------|
a|-----------------------------|
e|-----------------------------| 2x
Endurtaka heildina risvar


Lyrics writer: gund n roses
Song composer: gund n roses

    Go back
icon/star_david_32x32.gifdiddi
2.12.2006
LAME
You have to be registed user to send a message