Put this song in My favorites Print friendly version

Edit chords

No one knows

tuning: C F Bb Eb G c
Intro:
|----12-------12------12------12/-----|
|-----8--------8-------8-------8/-----|
|-----x--------x-------x-------x------|
|-----9--------9-------9-------9------|
|-----7--------7-------7-------7------|
|---------------------------------15\-|
|----------------------------------------------------------------------|
|---10--10--8-------10--10--8----------10--10--8-------10--10--8-------|
|---x---x---x---9---x---x---x---9------x---x---x---9---x---x---x---9---|
|---9---9---9---9---9---9---9---9------9---9---9---9---9---9---9---9---|
|---7---7---7---7---7---7---7---7------7---7---7---7---7---7---7---7---|
|-0-------------------------------15\0------------------------------15\|
|----------------------------------------------------------------------|
|---10--10--8-------10-10b(12)r10------10--10--8-------10--5*^---------|
|---x---x---x---9---x------------------x---x---x---9---x---5*^---------|
|---9---9---9---9---9------------------9---9---9---9---9---------------|
|---7---7---7---7---7------------------7---7---7---7---7---------------|
|-0-------------------------------15\0---------------------------------|
Verse:
||---------------------------------------------------------------------|
||---8-------8-------8-------8---8-8---8-------8-------8-------8---8-8-|
||---9-------9-------9-------9---9-9---9-------9-------9-------9---9-9-|
||---9-------9-------9-------9-9-9-9---9-------9-------9-------9-9-9-9-|
||---7-------7-------7-------7-7-7-----7-------7-------7-------7-7-7---|
||-0----(0)-----(0)-----(0)----0-----0----(0)-----(0)-----(0)--0-------|
|----------------------------------------------------------------------|
|---8-------8-------8-------8---8-8----8-------8-------8-------8---8---|
|---9-------9-------9-------9---9-9----9-------9-------9-------9---9---|
|---9-------9-------9-------9-9-9-9----9-------9-------9-------9-9-9---|
|---7-------7-------7-------7-7-7------7-------7-------7-------7-7-7---|
|-0----(0)-----(0)-----(0)----0------0----(0)-----(0)-----(0)--0-------|
_____________________________________________________________________
 |1.
|----------------------------------------------------------------------|
|---------------------------7---7---10--10--10--10--10--10--10--10-----|
|-------------------8---8---8---8---8---8---8---8---8---8---8---8------|
|---9---9---9---9---9---9---9---9---x---x---x---x---x---x---x---x------|
|---9---9---9---9---9---9---9-9-9-9-9---9---9---9---9---9---9---9------|
|---7---7---7---7---7---7---7-0-7-0-7---7---7---7---7---7---7-0-7-0----|
  _____________________________________________________________________
 (1.)
(til Verse 2)
|----------------------------------------------------------0^----------|
|---10--10--8-------10--10--8----------10--10--8-------10--6^----------|
|---x---x---x---9---x---x---x---9------x---x---x---9---x---------------|
|---9---9---9---9---9---9---9---9------9---9---9---9---9---------------|
|---7---7---7---7---7---7---7---7------7---7---7---7---7---------------|
|-0-------------------------------15\0---------------------------------|
  _____________________________________________________________________
 |2.
|----------------------------------------------------------------------|
|-------7-------7-------7---7---7---8---8---8---8---8---8---8---8------|
|-------8-------8-------8---8---8---8---8---8---8---8---8---8---8------|
|---9---9---9---9---9---9---9---9---7---7---7---7---7---7---7-7-7-7----|
|---9---9---9---9---9---9---9-9-9-9-6---6---6---6---6---6---6-0-6-0----|
|---7---7---7---7---7---7---7-0-7-0------------------------------------|
  _____________________________________________________________________
 (2.)
|----------------------------------------------------------------------|
|---10--10--8-------10--10-------------10--10--8-------10--10--8-------|
|---x---x---x---9---x---x--------------x---x---x---9---x---x---x--9----|
|---9---9---9---9---9---9--------------9---9---9---9---9---9---9--9----|
|---7---7---7---7---7---7-----5h7p5----7---7---7---7---7---7---7--7----|
|-0------------------------5h7-----7p0------------------------------15\|
|----------------------------------------------------------------------|
|-------7-------7-------7---7---7---8---8---8---8---8---8---8---8------|
|-------8-------8-------8---8---8---8---8---8---8---8---8---8---8------|
|---9---9---9---9---9---9---9---9---7---7---7---7---7---7---7-7-7-7----|
|---9---9---9---9---9---9---9-9-9-9-6---6---6---6---6---6---6-0-6-0----|
|---7---7---7---7---7---7---7-0-7-0------------------------------------|
|-------------------------------12-------------------------------------|
|---10--10--8-------10--10-8-10b-------10--10--8-------10--10--8-------|
|---x---x---x---9---x---x----------9~--x---x---x---9---x---x---x---9---|
|---9---9---9---9---9---9--------------9---9---9---9---9---9---9---x---|
|---7---7---7---7---7---7--------------7---7---7---7---7---7---7---7---|
|-0----------------------------------0---------------------------------|
Vi­lag:
||---------------------------------------------------------------------|
||--------------------------------#-metal-dist.------------------------|
||--9--11--12--11--14--12--16--14--------------------------------------|
||--x---x---x---x---x---x---x---x---9---9---9---9---9---9---9---9------|
||--7---9--10---9--12--10--14--12---9---9---9---9---9---9---9---9------|
||--------------------------------0-7-0-7-0-7-0-7-0-7-0-7-0-7-0-7-0----|
|----------------------------------------------------------------------|
|----------------------------------------------------------------------|
|---9--11--12--11--14--12--16--14--------------------------------------|
|---x---x---x---x---x---x---x---x---9---9---9---9---9---9---9---9------|
|---7---9--10---9--12--10--14--12---9---9---9---9---9---9---9---9------|
|---------------------------------0-7-0-7-0-7-0-7-0-7-0-7-0-7-0-7-0----|
|----------------------------------------------------------------------|
|----------------------------------------------------------------------|
|--12--11---9---8---9--11--12--11--------------------------------------|
|---x---x---x---x---x---x---x---x---9---9---9---9---9---9---9---9------|
|--10---9---7---6---7---9--10---9---9---9---9---9---9---9---9---9------|
|---------------------------------0-7-0-7-0-7-0-7-0-7-0-7-0-7-0-7-0----|
(enda vi­lag)
|---------------------------------------------------------------------||
|-------------------------------------------------------metal-dist.-#-||
|---9--11--12--11--14--12--16--14-------------------------------------||
|---x---x---x---x---x---x---x---x---9---9---9---9---9---9---9---9-----||
|---7---9--10---9--12--10--14--12---9---9---9---9---9---9---9---9-----||
|---------------------------------0-7-0-7-0-7-0-7-0-7-0-7-0-7-0-7-0---||
|----------------------------------------------------------0^----------|
|---10--10--8-------10--10--8----------10--10--8-------10--6^----------|
|---x---x---x---9---x---x---x---9------x---x---x---9---x---------------|
|---9---9---9---9---9---9---9---9------9---9---9---9---9---------------|
|---7---7---7---7---7---7---7---7------7---7---7---7---7---------------|
|-0-------------------------------15\0---------------------------------|
Verse:
||---------------------------------------------------------------------|
||---8-------8-------8-------8---8-8---8-------8-------8-------8---8-8-|
||---9-------9-------9-------9---9-9---9-------9-------9-------9---9-9-|
||---9-------9-------9-------9-9-9-9---9-------9-------9-------9-9-9-9-|
||---7-------7-------7-------7-7-7-----7-------7-------7-------7-7-7---|
||-0----(0)-----(0)-----(0)----0-----0----(0)-----(0)-----(0)--0-------|
||---------------------------------------------------------------------|
||---8-------8-------8-------8---8-8---8---8---8-------8-----8-8-8-8---|
||---9-------9-------9-------9---9-9---9---9---9-9---9-9-9---9-9-9-9---|
||---9-------9-------9-------9-9-9-9---9-9-9---9-9-9-9-9-9-9-9-9-9-9---|
||---7-------7-------7-------7-7-7-----7-7-----7---7---7-7-7---7-7-7---|
||-0----(0)-----(0)-----(0)----0-----0----(0)------0-------0---0-------|
|----------------------------------------------------------------------|
|-------7-------7-------7---7---7---8---8---8---8---8---8---8---8------|
|-------8-------8-------8---8---8---8---8---8---8---8---8---8---8------|
|---9---9---9---9---9---9---9---9---7---7---7---7---7---7---7-7-7-7----|
|---9---9---9---9---9---9---9-9-9-9-6---6---6---6---6---6---6-0-6-0----|
|---7---7---7---7---7---7---7-0-7-0------------------------------------|
|----------------------------------------------------------------------|
|---10--10--8-------10--10-------------10--10--8-------10--x^pick------|
|---x---x---x---9---x---x--------------x---x---x---9---x---x^-behind---|
|---9---9---9---9---9---9--------------9---9---9---9---9-------nut-----|
|---7---7---7---7---7---7-----5h7p5----7---7---7---7---7---------------|
|-0------------------------5h7-----7p0---------------------------------|
|----------------------------------------------------------------------|
|---8-------8-------8-------8---8-8----8-------8-------8-------8---8---|
|---9-------9-------9-------9---9-9----9-------9-------9-------9---9---|
|---9-------9-------9-------9-9-9-9----9-------9-------9-------9-9-9---|
|---7-------7-------7-------7-7-7------7-------7-------7-------7-7-7---|
|-0----(0)-----(0)-----(0)----0------0----(0)-----(0)-----(0)--0-------|
|----------------------------------------------------------------------|
|---8-------8-------8-------8---8-8----8-------8-------8-------8---8---|
|---9-------9-------9-------9---9-9----9-------9-------9-------9---9---|
|---9-------9-------9-------9-9-9-9----9-------9-------9-------9-9-9---|
|---7-------7-------7-------7-7-7------7-------7-------7-------7-7-7---|
|-0----(0)-----(0)-----(0)----0------0----(0)-----(0)-----(0)--0-------|
|----------------------------------------------------------------------|
|---------------------------7---7---10--10--10--10--8---8---8---8------|
|---------------------------8---8---8---8---8---8---8---8---8---8------|
|---9---9---9---9---9---9---9---9---x---x---x---x---6---6---6---6------|
|---9---9---9---9---9---9---9-9-9-9-9---9---9---9---7---7---7-0-7-0----|
|---7---7---7---7---7---7---7-0-7-0-7---7---7---7----------------------|
|----------------------------------------------------------------------|
|---10--10--8-------10--10--8----------10--10--8-------10--10--8-------|
|---x---x---x---9---x---x---x---9------x---x---x---9---x---x---x---9---|
|---9---9---9---9---9---9---9---9------9---9---9---9---9---9---9---9---|
|---7---7---7---7---7---7---7---7------7---7---7---7---7---7---7---7---|
|-0-------------------------------15\0---------------------------------|
|----------------------------------------------------------------------|
|-------7-------7-------7---7---7---8---8---8---8---8---8---8---8------|
|-------8-------8-------8---8---8---8---8---8---8---8---8---8---8------|
|---9---9---9---9---9---9---9---9---7---7---7---7-7-7---7-7-7-7-7-7----|
|---9---9---9---9---9---9---9-9-9-9-6---6---6---6-0-6---6-0-6-0-6-0----|
|---7---7---7---7---7---7---7-0-7-0------------------------------------|
|-------------------------------12-------------------------------------|
|---10--10--8-------10--10-8-10b-------10--10--8-------10--10--8-------|
|---x---x---x---9---x---x----------9~--x---x---x---9---x---x---x---9-x-|
|---9---9---9---9---9---9--------------9---9---9---9---9---9---9---9-x-|
|---7---7---7---7---7---7--------------7---7---7---7---7---7---7---7---|
|-0----------------------------------0---------------------------------|
vi­lag
Bridge:
                                                        (spila 2x)
||--------------------------------------------------------------------||
||--9---9---9---9---9---9---9---9---9---9---9---9---------------------||
||--9---9---9---9---9---9---9---9---9---9---9---9--------8------------||
||--9---9---9---9---9---9---9---9---9---9---9---9---9-10-8-10-9-10----||
||--7-0-7-0-7-0-7-0-7-0-7-0-7-0-7-0-7-0-7-0-7-0-7-0-9-10-6-10-9-10----||
||--------------------------------------------------7-8-----8-7--8----||
|----------------------------------------------------------------------|
|----------------------------------------------------------------------|
|------8---------------8---------------8---------9-----bass riff-1-----|
|-9-10-8-10-9-10--9-10-8-10-9-10--9-10-8-10-9-10-9---------------------|
|-9-10-6-10-9-10--9-10-6-10-9-10--9-10-6-10-9-10-7---------------------|
|-7-8-----8-7--8--7-8-----8-7--8--7-8-----8-7--8-----------------------|
gÝtarsˇlˇ :)
|----------------------------------------------------------------------|
|--------------------------------------------/17-15-/19-15-/17---------|
|---9/11-11-11/12-12-12/14-14-14/16-16-16~-----------------------------|
|----------------------------------------------------------------------|
|----------------------------------------------------------------------|
|----------------------------------------------------------------------|
|----------------------------------------------------------------------|
|----------------------------------------------------------------------|
|--/16~-------16p14p12h14~--14p12p11h12~--12p11p9h11~--12p11p9h11/16~--|
|----------------------------------------------------------------------|
|----------------------------------------------------------------------|
|----------------------------------------------------------------------|
|----------------------------------------------------------------------|
|----------------------------------------------------------------------|
|--------12-16/19-------12-16/19~------12-16/19~-----------------------|
|-----14-------------14-------------14---------------------------------|
|----------------------------------------------------------------------|
|----------------------------------------------------------------------|
|--11h14p11-------------------11h14p11---------------------------------|
|-----------12h15p12-------------------12h15p12------------------------|
|--------------------12p11h12--------------------12p11h12--------------|
|----------------------------------------------------------------------|
|----------------------------------------------------------------------|
|----------------------------------------------------------------------|
|--11h14p11-------------------11h14p11--------------------12-----------|
|-----------12h15p12-------------------12h15p12------------------------|
|--------------------12p11h12--------------------12p11h12--------------|
|----------------------------------------------------------------------|
|----------------------------------------------------------------------|
|----------------------------------------------------------------------|
Bassa Riff
Verse:
                5.
|-----------------------------------------------------------x----------|
|-----------------------------------------------------------x-pick-----|
|--------------------------------------------------------------behind--|
|---------------------------------------------------------------nut----|
|----------------------------------------------------------------------|
|-------------------------------------------------------------------15\|
|----------------------------------------------------------------------|
|----8-------8-------8-------8---8-8---8-------8-------8-------8---8-8-|
|----9-------9-------9-------9---9-9---9-------9-------9-------9---9-9-|
|----9-------9-------9-------9-9-9-9---9-------9-------9-------9-9-9-9-|
|----7-------7-------7-------7-7-7-----7-------7-------7-------7-7-7---|
|--0----(0)-----(0)-----(0)----0-----0----(0)-----(0)-----(0)--0-------|
|----------------------------------------------------------------------|
|-------7-------7-------7---7---7---8---8---8---8---8---8---8---8------|
|-------8-------8-------8---8---8---8---8---8---8---8---8---8---8------|
|---9---9---9---9---9---9---9---9---7---7---7---7---7---7---7-7-7-7----|
|---9---9---9---9---9---9---9-9-9-9-6---6---6---6---6---6---6-0-6-0----|
|---7---7---7---7---7---7---7-0-7-0------------------------------------|
|----------------------------------------------------------------------|
|---10--10--8-------10--10--8------7*--10--10--8-------10--10--8--10-8-|
|---x---x---x---9---x---x---x---9--7*--x---x---x---9---x---x---x---x---|
|---9---9---9---9---9---9---9---9------9---9---9---9---9---9---9---9---|
|---7---7---7---7---7---7---7---7------7---7---7---7---7---7---7---7---|
|-0--------------------------------------------------------------------|
|----------------------------------------------------------------------|
|---------------------------7---7---------------8---8---8---8---8------|
|-----------------------8---8---8---8---8---8---8---8---8---8---8------|
|-----------9---9---9---9---9---9---7---7---7---7---7---7---7---7------|
|---9---9---9---9---9---9---9-9-9-9-6---6---6---6---6---6---6---6------|
|---7---7---7---7---7---7---7-0-7-0------------------------------------|
Outro:
|----12-------12------12------12------|--------------------------------|
|-----8--------8-------8-------8------|--------------------------------|
|-----x--------x-------x-------x------|-------radio--------------------|
|-----9--------9-------9-------9------|--------------------------------|
|-----7--------7-------7-------7------|--------------------------------|
|-------------------------------------|--------------------------------|


Lyrics writer: Queens of the Sotne Age
Song composer: Queens of the Sotne Age

    Go back
Nothing have been submited about this song.
You have to be registed user to send a message