Without pictures of chords Without chords Put this song in My favorites Print friendly version

Edit chords

Tunnel

STANDARD TUNING
  Am     F     C     C*    G     D
|--0--|--1--|--0--|--0--|--3--|--2--|
|--1--|--1--|--1--|--1--|--0--|--3--|
|--2--|--2--|--0--|--0--|--0--|--2--|
|--2--|--3--|--2--|--0--|--0--|--0--|
|--0--|-----|--3--|--3--|--2--|-----|
|-----|-----|-----|-----|--3--|-----|
Intro/Outro
                          
       Am               F                        C                        C*
e|-----0--------------1-------------------0--------------------0-------------|
B|-------1----------------1-------------------1--------------------1---------|
G|------2-----------2---2-------------------2----------------2---2-----------|
D|---2------------3---------------------2------------------0-----------------|
A|-0----------------------------------3--------------------------------------|
E|---------------------------------------------------------------------------|
       Am                 F                 C
e|-----0--------------1---------------0--------------------------------------|
B|-------1----------------1-----------1--------------------------------------|
G|------2-----------2---2-------------2--------------------------------------|
D|---2------------3-------------------2--------------------------------------|
A|-0----------------------------------3--------------------------------------|
E|---------------------------------------------------------------------------|
Am   F            C
     I set out alone,
       C*                 Am
     Crawl through the tunnel,
        F                 C           C*       Am
     My eyes can hardly see the other side,
     F            C
     No longer cold,
        C*             Am
     Or feeling in trouble,
     F              C           C*
     I realize that I am just alive....
     D         F
     So let it shine,
           
           Am  F       C            C*
     Cause we are, the light in the tunnel,
     Am  F      C          C*
     We are the living and dying,
     Am          F     C          C*
     See how we are, alone in the world,
     Am  F      C
     We are the light in the tunnel,
     
     Thatís all.....
Intro
     
Am   F         C                 C*           Am     
     Moving so slow, towards the end of the tunnel
       F                  C             C*     Am
     I donít pretend Iíll see the other side
       F                  C
     I trudge through the mud
       C*               Am
     I push through the rubble
        F            C         C*
     To realize that I am just alive
     D         F
     So let it shine
           Am  F       C            C*
     Cause we are, the light in the tunnel,
     Am  F      C          C*
     We are the living and dying,
     Am          F     C          C*
     See how we are, alone in the world,
     Am  F      C
     We are the light in the tunnel,
     
G                     Am
     The world is not leaving us (leave us behind)
G                   Am
     But we will be leaving this world
G                           Am
     Yeah, the world is not leaving us (leave us behind)
G     
     Do we believe in this world?
     (play intro for bracket stuff)
           
           Am  F       C            C*
     (Cause we are, the light in the tunnel,
     Am  F      C          C*
     We are the) living and dying,
     Am          F     C          C*
     See how we are, alone in the world,
     Am  F      C            C*
     We are the light in the tunnel,
            Am
     Thatís all....
        F       C            C*
     We are the light in the tunnel
            Am    
     Thatís all....
        F       C            C*     
     We are the light in the tunnel
     
     Thatís all....
Outro


Lyrics writer: The Used
Song composer: The Used

    Go back
Nothing have been submited about this song.
You have to be registed user to send a message