Without pictures of chords Without chords Put this song in My favorites Print friendly version

F
EADgbe
FBbEbabcf
F#BEac#f#
GCFbbdg
AbC#F#bebab
ADGcea
Bb
EADgbe
FBbEbabcf
F#BEac#f#
GCFbbdg
AbC#F#bebab
ADGcea
C
EADgbe
FBbEbabcf
F#BEac#f#
GCFbbdg
AbC#F#bebab
ADGcea
Gm
EADgbe
FBbEbabcf
F#BEac#f#
GCFbbdg
AbC#F#bebab
ADGcea
Am
EADgbe
FBbEbabcf
F#BEac#f#
GCFbbdg
AbC#F#bebab
ADGcea
Dm
EADgbe
FBbEbabcf
F#BEac#f#
GCFbbdg
AbC#F#bebab
ADGcea
Edit chords

Sverige

Bb Bb 
e------5-6--6p5----------------------6/8-6---6h8p6p5----------------
B----6---------86-8-/10-8----------6-------------------86-8-/10-8------
G--5-----------------------------5----------------------------------------5--
Gm 
Sverige, Sverige, älskade vän
Am Dm 
En tiger som  skäms
Gm 
Jag vet hur det  känns
Gm 
När allvaret har blivit ett skämt
Am Dm 
När tystnaden skräms
Gm 
Vad är det som hänt
Bb Dm 
Välkommen, välkommen hit
Gm 
Vem du än är, var du än är
Bb Bb 
e------5-6--5h6p5---------------------8-10p8-6--6h8p6p5---------------
--
B----6-----------86-8-/10-8-------/10------------------86-8-/10-8-------
G--5----------------------------------------------------------------5---
Gm 
Duka din veranda till fest
Am Dm 
För en långväga gäst
Gm 
I landet lagom är bäst
Bb 
Vi skålar för en midsommar till
Am Dm 
Färsk potatis och  sill
Gm 
Som om tiden stått still
Bb Dm 
Välkommen, välkommen hit
Gm 
Vem du än är, var du än är
Bb Bb 
e------5-6--5h6p5---------------------8-10p8-6--6h8p6p5---------------
--
B----6-----------86-8-/10-8-------/10------------------86-8-10--8-------
G--5----------------------------------------------------------10--------
D-------------------------------------------------------------------10--
Gm 
Regnet slår mot rutorna nu
Am Dm 
Men natten är ljus 
Gm 
i ett land utan ljud
Bb 
Och glasen glittrar tyst på vårt bord
Am Dm 
Lika tomma som ord
Gm 
Visst är kärleken  stor
Bb Dm 
Välkommen, välkommen hit
Gm Dm 
Vem du än är, var du än är 
Bb Dm 
Välkommen, välkommen hit
Gm 
Vem du än är, var du än är


Lyrics writer: J. Berg
Song composer: J.Berg

    Go back
Nothing have been submited about this song.
You have to be registed user to send a message